Vama Veche - Epilog

gen: Nespecificat
postat de Alexandru la 2008-07-23 18:25:54
vizualizari 574
Traspunere pian: Gabbath The Coldhearted
Transpunere chitara: Silviu Maiorescu

Transpunerea pianului pe chitara:

              C                          G                        
E||--0--1--|--0--0-----0-----0-----5--|--3-----------------------|
B||--------|--1-----------------------|--3--3--3--3--3-----1--3--|
G||--------|--0-----0-----0-----0-----|--0-----------------------|
D||--------|--2-----------------------|--0-----------------------|
A||--------|--3-----------------------|--2-----------------------|
E||--------|--------------------------|--3--------------3--------|


  Am                         F                        
--0-----0-----0-----0--0--|--1-----------------7--8--|
--1--1-----1-----1--------|--1--1--1--1--1-----------|
--2-----------------------|--2-----------------------|
--2-----------------------|--3-----------------------|
--0-----------------------|--3--------------3--------|
--------------------------|--1-----------------------|


  C                          G                        
--0-----------0-----5--3--|--3-----------------7--8--|
--1-----1--3--------------|--3--3--0--3--0--3--------|
--0--0--------------------|--0-----------------------|
--2--------------2--------|--0-----------------------|
--3-----------------------|--2-----------------------|
--------------------------|--3-----------------------|


  C                             C                     C                        
--0-----0-----0--0-----5--3--|--3------------0--1--|--0--0-----0-----0-----5--|
--1-1-1---1-1-------1--------|--5------------------|--1-----------------------|
--0--------------------------|---------------------|--0-----0-----0-----0-----|
--2--------------------------|---------------------|--2-----------------------|
--3--------------------------|---------------------|--3-----------------------|
-----------------------------|---------------------|--------------------------|


  G                          Am                      
--3-----------------7--8--|--0-----0-----0-----0--0--|
--3--3--0--3--0--3--------|--1--1-----1-----1--------|
--0-----------------------|--2-----------------------|
--0-----------------------|--2-----------------------|
--2-----------------------|--0-----------------------|
--3-----------------------|--------------------------|


F                          C                        
--1-----------------7--8--|--0-----------0-----5--3--|
--1--1--1--1--1-----------|--1-----1--3--------------|
--2-----------------------|--0--0--------------------|
--3-----------------------|--2--------------2--------|
--3--------------3--------|--3-----------------------|
--1-----------------------|--------------------------|


G                            C                       C                    
--3-------------------------|--0-----0-----3--------|--0-----0-----3--------|
--3--3--0--3--0--3----------|--1--1-----1-----------|--1--1-----1-----------|
--0-------------------------|--0--------------------|--0--------------------|
--0---------------------0-2-|--2--------------------|--2--------------------|
--2-----------------2-3-----|--3--------------------|--3--------------------|
--3-------------------------|-----------------------|-----------------------|


C                          G                        
--0-----------------------|--------------------------|
--1--1--1--1--1--1--1--1--|--1--0--0--------------0--|
--0-----------------------|-----------2--0-----2-----|
--2-----------------------|--------------------------|
--3-----------------------|-----------------3--------|
--------------------------|--------------------------|


Am                         F                        
--0--------------------0--|--------------------7--8--|
--1--1--1--1--1--1--1-----|--1-----------------------|
--2-----------------------|-----2--2-----------------|
--2-----------------------|-----------3--0--2--------|
--0-----------------------|--------------------------|
--------------------------|--------------------------|


C                          G                            C                    
--0-----------0-----5--3--|--3-------------------------|--0-----0-----3--------|
--1-----1--3--------------|--3--3--0--3--0--3----------|--1--1-----1-----------|
--0--0--------------------|--0-------------------------|--0--------------------|
--2--------------2--------|--0---------------------0-2-|--2--------------------|
--3-----------------------|--2-----------------2-3-----|--3--------------------|
--------------------------|--3-------------------------|-----------------------|


C                       C                          G                        
--0-----0-----3--------|--0-----------------------|--------------------------|
--1--1-----1-----------|--1--1--1--1--1--1--1--1--|--1--0--0--------------0--|
--0--------------------|--0-----------------------|-----------2--0-----2-----|
--2--------------------|--2-----------------------|--------------------------|
--3--------------------|--3-----------------------|-----------------3--------|
-----------------------|--------------------------|--------------------------|


Am                         F                        
--0--------------------0--|--------------------7--8--|
--1--1--1--1--1--1--1-----|--1-----------------------|
--2-----------------------|-----2--2-----------------|
--2-----------------------|-----------3--0--2--------|
--0-----------------------|--------------------------|
--------------------------|--------------------------|


C                          G                            C                    
--0-----------0-----5--3--|--3-------------------------|--0-----0-----3--------|
--1-----1--3--------------|--3--3--0--3--0--3----------|--1--1-----1-----------|
--0--0--------------------|--0-------------------------|--0--------------------|
--2--------------2--------|--0---------------------0-2-|--2--------------------|
--3-----------------------|--2-----------------2-3-----|--3--------------------|
--------------------------|--3-------------------------|-----------------------|


C                         C                          G                        
--0-----0-----3----0--1--|--0--0-----0-----0-----5--|--3-----------------------|
--1--1-----1-------------|--1-----------------------|--3--3--3--3--3-----1--3--|
--0----------------------|--0-----0-----0-----0-----|--0-----------------------|
--2----------------------|--2-----------------------|--0-----------------------|
--3----------------------|--3-----------------------|--2-----------------------|
-------------------------|--------------------------|--3--------------3--------|


Am                         F                        
--0-----0-----0-----0--0--|--1-----------------7--8--|
--1--1-----1-----1--------|--1--1--1--1--1-----------|
--2-----------------------|--2-----------------------|
--2-----------------------|--3-----------------------|
--0-----------------------|--3--------------3--------|
--------------------------|--1-----------------------|


C                          G                            C                    
--0-----------0-----5--3--|--3-------------------------|--0-----0-----3--------|
--1-----1--3--------------|--3--3--0--3--0--3----------|--1--1-----1-----------|
--0--0--------------------|--0-------------------------|--0--------------------|
--2--------------2--------|--0---------------------0-2-|--2--------------------|
--3-----------------------|--2-----------------2-3-----|--3--------------------|
--------------------------|--3-------------------------|-----------------------|


C                       C                          G                        
--0-----0-----3--------|--0-----------------------|--------------------------|
--1--1-----1-----------|--1--1--1--1--1--1--1--1--|--1--0--0--------------0--|
--0--------------------|--0-----------------------|-----------2--0-----2-----|
--2--------------------|--2-----------------------|--------------------------|
--3--------------------|--3-----------------------|-----------------3--------|
-----------------------|--------------------------|--------------------------|


Am                         F                        
--0--------------------0--|--------------------7--8--|
--1--1--1--1--1--1--1-----|--1-----------------------|
--2-----------------------|-----2--2-----------------|
--2-----------------------|-----------3--0--2--------|
--0-----------------------|--------------------------|
--------------------------|--------------------------|


C                          G                            C                    
--0-----------0-----5--3--|--3-------------------------|--0-----0-----3--------|
--1-----1--3--------------|--3--3--0--3--0--3----------|--1--1-----1-----------|
--0--0--------------------|--0-------------------------|--0--------------------|
--2--------------2--------|--0---------------------0-2-|--2--------------------|
--3-----------------------|--2-----------------2-3-----|--3--------------------|
--------------------------|--3-------------------------|-----------------------|


C                       C                          G                        
--0-----0-----3--------|--0-----------------------|--------------------------|
--1--1-----1-----------|--1--1--1--1--1--1--1--1--|--1--0--0--------------0--|
--0--------------------|--0-----------------------|-----------2--0-----2-----|
--2--------------------|--2-----------------------|--------------------------|
--3--------------------|--3-----------------------|-----------------3--------|
-----------------------|--------------------------|--------------------------|


Am                         F                        
--0--------------------0--|--------------------7--8--|
--1--1--1--1--1--1--1-----|--1-----------------------|
--2-----------------------|-----2--2-----------------|
--2-----------------------|-----------3--0--2--------|
--0-----------------------|--------------------------|
--------------------------|--------------------------|


C                          G                            C                    
--0-----------0-----5--3--|--3-------------------------|--0-----0-----3--------|
--1-----1--3--------------|--3--3--0--3--0--3----------|--1--1-----1-----------|
--0--0--------------------|--0-------------------------|--0--------------------|
--2--------------2--------|--0---------------------0-2-|--2--------------------|
--3-----------------------|--2-----------------2-3-----|--3--------------------|
--------------------------|--3-------------------------|-----------------------|


C                             C                      C                    
--0-----0-----3--3-1---------|-----------------0----|----------------------|
--1--1-----1-----------------|--1-------------------|------------0----1----|
--0--------------------------|--0---------5---------|---------0------------|
--2----------------------0-2-|--2-------------------|--2-------------------|
--3------------------2-3-----|--3------3------------|--3-------------------|
-----------------------------|----------------------|--3-------------------|


Am                        F                          C                      
--0----5--------5--8--7--|--1--5--5-----------7--8--|--0-----------0-----5--3--|
--1----------------------|--1-----------------------|--1-----1-----------------|
--2----------0-----------|--2-----------------------|--0--0-----0--------------|
--2----------------------|--3--------3--3-----------|--2--------------2--------|
--0-------3--------------|--3--------------3--------|--3-----------------------|
-------------------------|--1-----------------------|--------------------------|


G                            C                    
--3-------------------------|--0-----0-----3--------|
--3--3--0--3--0--3----------|--1--1-----1-----------|
--0-------------------------|--0--------------------|
--0---------------------0-2-|--2--------------------|
--2-----------------2-3-----|--3--------------------|
--3-------------------------|-----------------------|


C                                                                            
--0-----0-----3--3-1---------|--------------------0-----|----------------------|
--1--1-----1-----------------|--1-----------1-----------|------------0----1----|
--0--------------------------|--0--0-----------0--------|---------0------------|
--2----------------------0-2-|--2-----2-----------------|--2-------------------|
--3------------------2-3-----|--3--------3-----------3--|--3-------------------|
-----------------------------|--------------------------|--3-------------------|


Am                        F                          C                        
--0----5--------5--8--7--|--1--5--5-----------7--8--|--0-----------0-----5--3--|
--1----------------------|--1-----------------------|--1-----1-----------------|
--2----------0-----------|--2-----------------------|--0--0-----0--------------|
--2----------------------|--3--------3--3-----------|--2--------------2--------|
--0-------3--------------|--3--------------3--------|--3-----------------------|
-------------------------|--1-----------------------|--------------------------|


G                            C                                          
--3-------------------------|--0-----0-----3--------|--------------------|
--3--3--0--3--0--3----------|--1--1-----1-----------|--1----3------------|
--0-------------------------|--0--------------------|--0-----------------|
--0---------------------0-2-|--2--------------------|--2-----------------|
--2-----------------2-3-----|--3--------------------|--3-----------------|
--3-------------------------|-----------------------|--------------------|


C     C     C            G                         Am                      
--0-----0-----0----0----|--3--------3-----3-------|--0-------------1--------|
--1-----1-----1---------|--3--3--0-----0-----3----|--1----1-----------3--5--|
--0-----0-----0---------|--0----------------------|--2----------0-----------|
--2-----2-----2---------|--0----------------------|--2----------------------|
--3--3--3--3--3---------|--2----------------------|--0-------3--------------|
------------------------|--3----------------------|-------------------------|


F                          C                        
--1-----------------------|--0-----------0-----5--3--|
--1-----------------0--1--|--1-----1-----------------|
--2--2--2-----------------|--0--0-----0--------------|
--3--------3--3-----------|--2--------------2--------|
--3--------------3--------|--3-----------------------|
--1-----------------------|--------------------------|


                           C                       C                      
--3-------------------------|--0-----0-----3--------|--0-----0-----3----7--8--|
--3--3--0--3--0--3----------|--1--1-----1-----------|--1--1-----1-------------|
--0-------------------------|--0--------------------|--0----------------------|
--0---------------------0-2-|--2--------------------|--2----------------------|
--2-----------------2-3-----|--3--------------------|--3----------------------|
--3-------------------------|-----------------------|-------------------------|


C                                                    
--0-----------0-----5--3--|--3-------------------------|
--1-----1-----------------|--3--3--0--3--0--3----------|
--0--0-----0--------------|--0-------------------------|
--2--------------2--------|--0---------------------0-2-|
--3-----------------------|--2-----------------2-3-----|
--------------------------|--3-------------------------|


C                          C                       C                    
--0-----0-----3-----0-----|--0--3--0--3--3--------|--0-------------------|
--1--1-----1-----1-----1--|--1--------------------|--1----1--------------|
--0-----------------------|--0--------------------|--0---------0----2----|
--2-----------------------|--2--------------------|--2-------------------|
--3-----------------------|--3--------------------|--3-------------------|
--------------------------|-----------------------|----------------------|


                                C                            
--0----3-----------0--|-------------------|------------------|
----------------------|-------------------|------------------|
------------2---------|-------------------|------------------|
----------------------|----------2--------|------------------|
----------------------|----------3--------|------------------|
----------------------|----------3--------|------------------|


                    
------------------||
------------------||
------------------||
------------------||
------------------||
------------------||

www.acorduri.tk

Comentarii


Nu exista nici un comentariu.