Anatol Dumitras - Prima dragoste

gen: Nespecificat
postat de Alexandru la 2008-07-27 18:38:49
vizualizari 771
________
GuitarPro-ul e incomplet dar puteti gasi piesa in aceasta interpretare pe
http://www.youtube.com/watch?v=j81gdZYFTz8
----------

Arpegiu pentru vers:

    Em                                       etc.. pentru celelalte acorduri
E||-----------0--------|-----------0--------| + mici inflorituri care e greu
B||--------0-----0-----|--------0-----0-----|   sa le arat acum
G||-----0-----------0--|-----0-----------0--|
D||--------------------|--------------------|
A||--------------------|--2-----------------|
E||--0-----------------|--------------------|


Em  Am            Em
Da, in sf?r?it am ajuns
Am B7         C
?i la pagina ta
F#                 B
Ing?lbenit? de vremi...
Em Am               Em
Tu parc? nici nu ai fost
Am B7           C
?i nici n-ai existat,
F#    B7          Em
Prima dragoste-a mea.

Eu ochii vreau s?-mi dezleg
?i pe-o clip? sa dau
Amintirilor fr?u...
C?nd, c?nd ?i cum s-a-ntamplat
Ce-am facut de-am uitat
Glasul, numele tau.

Refren:

Acesta este paternul pentru ciupitura de la refren folosita in clip:

    Em                   Am                   B7 etc. pe celelalte acorduri
E||--------0--------0--|--------0--------0--|--------2--------2--|
B||--------0--------0--|--------1--------1--|--------0--------0--|
G||-----0--------0-----|-----2--------2-----|-----2--------2-----|
D||--------------------|-----------2--------|-----------1--------|
A||-----------2--------|--0-----------------|--2-----------------|
E||--0-----------------|--------------------|--------------------|


Em             Am
Vino pe aripi de dor,
B7                Em
In alb? rochi?? cu flori
Em    F#
Dragoste,
B7                Em
Prima dragoste-a mea
Em G            Am
Vino cu primul sarut
D                 G   B7
Cel mai frumos si mai sf?nt
Em                F#
Vino ?i nu mai pleca
B7                Am
Prima dragoste-a mea.

Da, ast?zi e ziua ta,
Tu in inima mea
Te-ai n?scut din nou
?tiu c?-ntr-o zi vei veni
Intr-un ?ir de cocori
Prima dragoste-a mea

Refren.

Comentarii


Nu exista nici un comentariu.